Jump to content
Slate Blackcurrant Watermelon Strawberry Orange Banana Apple Emerald Chocolate Marble
Slate Blackcurrant Watermelon Strawberry Orange Banana Apple Emerald Chocolate Marble
Sign in to follow this  
borntoplayguitar

Tab for Dazed and Confused live, The Song Remains the Same

Recommended Posts

I don't think San Francisco was a standard part of the song and any official Tab book won't have that at all

Some nights they would alternate between Woodstock or San Francisco or nothing at all or completely improvised with something different

Edited by TheGreatOne

Share this post


Link to post
Share on other sites

I wrote out a tab for the San Francisco section a few years ago on Ultimate-Guitar.com. Here it is, with corrections. Obviously far from complete, but it might help you get started. B)

 

Riff sounds very similar to 'Achilles Last Stand'

e:---0------0------0-----0----------------0~~~---0--0----------------|
B:-----0------0------0-----0--------------3~~~----3--3---------------|
G:----------------------------------------0~~~-----0--0--------------|>3x
D:--2------4------5------7------5---4-----0~~~-----------------------|
A:----------------------------------------3~~~-----------------------|
E:-------------------------------------------------------------------|

there are variations so just ad lib.

e:---0-----0---------------------------------------------------------|
B:-----0-----0-------------------------------------------------------|
G:-------------------------------------------------------------------|
D:--2-----4------5~~--5h7p5--4h5p4--2h4p2----------------------------|
A:------------------------------------------3~~~---------------------|
E:-------------------------------------------------------------------|

everywhere, everywhere...

(gently rock wah back and forth throughout)
e:--7--7--7--7--7--7--7--7-------------------------------------------|
B:--8--8--7--7--8--8--7--7-------------------------------------------|
G:--9--9--7--7--9--9--7--7-------------------------------------------|>4x
D:-------------------------------------------------------------------|
A:-------------------------------------------------------------------|
E:-------------------------------------------------------------------|

e:--7--7--7--7--7--7--7--7-------------------------------------------|
B:--8--8--8--7--8--8--8--7-------------------------------------------|
G:--9--9--9--7--9--9--9--7-------------------------------------------|>8x
D:-------------------------------------------------------------------|
A:-------------------------------------------------------------------|
E:-------------------------------------------------------------------|

I know! I know!

    Em
e:--0-0-0-0\-- \
B:--0-0-0-0--- \
G:--0-0-0-0 -- \
D:--2-2-2-2 -- \3X
A:--2-2-2-2--- \ /
E:--0-0-0-0--- \

    C
e:--0-0-0-0\-- \
B:--1-1-1-1--- \
G:--0-0-0-0 -- \
D:--2-2-2-2 -- \3X
A:--3-3-3-3--- \ /
E:--x-x-x-x/

    Em
e:--0-0-0-0\-- \
B:--0-0-0-0--- \
G:--0-0-0-0 -- \
D:--2-2-2-2 -- \3X
A:--2-2-2-2--- \ /
E:--0-0-0-0--- \

    C
e:--0-0-0-0\-- \
B:--1-1-1-1--- \
G:--0-0-0-0 -- \
D:--2-2-2-2 -- \3X
A:--3-3-3-3--- \ /
E:--x-x-x-x/

e:----------------------|------------------------------------|
B:----------------------|------------------------------------|
G:----------------------|------------------------------------|
D:-------------0-1-2----|------------------------------------|
A:-------0-2-3----------|------------------------------------|
E:-0-2-3-------------0~~|---3-2-0~----8p7h8------------------|
  fast...


  play around with E and C octaves
e:------------------------------------------|
B:------------------------------------------|
G:------------------------------------------|
D:-14s13s14s13s14----14s13s14s13s14---------|
A:------------------------------------------|
E:-12s11s12s11s12----12s11s12s11s12---------|


e:------------------------------------------|
B:------------------------------------------|
G:------------------------------------------|
D:-10s9s10s9s10----10s9s10s9s10-------------|
A:------------------------------------------|
E:-8s7s8s7s8-------8s7s8s7s8----------------|

then into the bow solo.

Share this post


Link to post
Share on other sites

Create an account or sign in to comment

You need to be a member in order to leave a comment

Create an account

Sign up for a new account in our community. It's easy!

Register a new account

Sign in

Already have an account? Sign in here.

Sign In Now
Sign in to follow this  

×