Jump to content
Slate Blackcurrant Watermelon Strawberry Orange Banana Apple Emerald Chocolate Marble
Slate Blackcurrant Watermelon Strawberry Orange Banana Apple Emerald Chocolate Marble
Sign in to follow this  
Yes Half

Help with tabbing WLL 1973

Recommended Posts

Could anyone help me with this part? From 1:58:33 to 1:59:02

Thanks in advance.

Edited by Yes Half

Share this post


Link to post
Share on other sites

It wasn't that hard to figure out what he's playing, so I went ahead and tabbed it all out for you:

(/) Slide Up  (\) Slide Down  (h) Hammer On  (p) Pull Off  ( Bend (r) Release (v) Vibrato


E|----------------------------------------------------------------------------------
B|----------------------------------------------------------------------------------
G|----------------------------------------------------------------------------------
D|------------x-x-x--------------------x-x-x-x--------------------x-x-x-x-----------
A|--7-7--5-7--x-x-x-----------7-7--5---x-x-x-x-----------7-7--5---x-x-x-x--2p0------
E|------7-----x-x-x--7p0-5p0------7----x-x-x-x--7p0-5p0------7----x-x-x-x------3p0--

E|-------------------------------
B|-------------------------------
G|-------------------------------
D|----------xx--2p0---0-----2p0--    <------- REPEAT FIVE TIMES
A|--7-7--5--xx------2------------
E|------7---xx----------3p0------
   				
E|--x-x-x-x-------------x-x-x-x-----------------x-x-x-x-----------------
B|--7-7-7-7-------------7-7-7-7-----------------7-7-7-7-----------------
G|--7-7-7-7-------------7-7-7-7-----------------7-7-7-7-----------------
D|--6-6-6-6---2p0-------6-6-6-6--2p0------------6-6-6-6----------2p0-0--
A|--7-7-7-7------2p0-0--7-7-7-7------2p0--------7-7-7-7------2p0--------
E|--x-x-x-x-------------x-x-x-x----------3p0-0--x-x-x-x--3p0------------
							
E|--x-x-x-x--------------------x--
B|--7-7-7-7--------------------9--
G|--7-7-7-7--------------------9--
D|--6-6-6-6----------2p0---0---9--
A|--7-7-7-7------2p0-----2-----7--
E|--x-x-x-x--3p0---------------x--
By the way, those chords are E9 and E. Edited by Led Dirigible

Share this post


Link to post
Share on other sites

Hey all,

I'm just looking for the small lick that he does right before the Theramin. I know part of it is him rambling on an E7 up and down around the 6th and 7th fret

Thanks in advance!

Share this post


Link to post
Share on other sites

Join the conversation

You can post now and register later. If you have an account, sign in now to post with your account.

Guest
Reply to this topic...

×   Pasted as rich text.   Paste as plain text instead

  Only 75 emoji are allowed.

×   Your link has been automatically embedded.   Display as a link instead

×   Your previous content has been restored.   Clear editor

×   You cannot paste images directly. Upload or insert images from URL.

Sign in to follow this  

×
×
  • Create New...