Jump to content
Slate Blackcurrant Watermelon Strawberry Orange Banana Apple Emerald Chocolate Marble
Slate Blackcurrant Watermelon Strawberry Orange Banana Apple Emerald Chocolate Marble
Sign in to follow this  
MS1

Led Zeppelin Tabs

Recommended Posts

I figure it's only appropriate that the first thing posted in this new Musician's Corner section is a Stairway intro tab. Doing our part to get a new generation of budding pickers kicked out of guitar stores!

stairwaytoheaven.gif

Share this post


Link to post
Share on other sites

Kool, I was just thinking last night, that this is the first song I ever learned to play on the guitar, way way back.

Share this post


Link to post
Share on other sites

Immigrant Song....Intro and main guitar riff and drum pattern too !! Good exercise for beginners to get the syncopation right !! F# is the only note used in the riff (just played an octive higher on the 4th note, simple but cool !)

led_zep_immigrant_song.gif

Here is a link to another guitr music thread (maybe the Mods can merge it now ?)

http://forums.ledzeppelin.com//index.php?showtopic=1778

Edited by leddy

Share this post


Link to post
Share on other sites

I remember I learnt that nifty little triplet technique from the end of the "Stairway to Heaven" solo. Sometimes it is good to break a song down into little chunks and have a look at exactly what is going on:

p = pull off

e--20p17-------20p17--------20p17-------20p17------

B----------17-----------17-------------17-----------17--

G----------------------------------------------------------

D----------------------------------------------------------

A----------------------------------------------------------

E----------------------------------------------------------

Really cool technique to slip into a solo somewhere. :thumbsup: Played in any minor pentatonic....Jimmy style. :D

Share this post


Link to post
Share on other sites
Is this played in F or F#???

Um did you read my post its in there :D .......F# !!! :) or did you mean what key ??...I think A !! A,B,C#,D,E,F#,G# although as it start F# then that could be outlining the F# minor which is realtive minor to A major !! thats a guide as there are chords outside of that !! , The jazzy chord at the end is a C7 add 9 chord

Edited by leddy

Share this post


Link to post
Share on other sites

STAIRWAY TO HEAVEN (Live)

As recorded by Led Zeppelin

(From the 1972 Double Album/DVD "THE SONG REMAINS THE SAME")

Arranged by Jimmy Page

Gtr I (E A D G B E) - '6 strings'

Gtr II (E A D G B E) - '12 strings 1'

Gtr III (E A D G B E) - '12 strings 2'

Gtr IV (E A D G B E) - 'Solo'

Gtr V (E A D G B E) - '12 strings over. I'

Gtr VI (E A D G B E) - '12 strings over. II'

Intro

Slowly Q=76

Am Amadd9/G# C/G D/F#

4/4

Gtr I

E E E E E E E E E E E E E E E E

|-5-----5-7-----7-|-8-----8\-2-----2-|

|---5-------5-----|---5--------3-----|

|-----5-------5---|-----5--------2---|

|-7-------6-------|-5--------4-------|

|-----------------|------------------|

|-----------------|------------------|

H H H H

Fmaj7 G/Am

|-3-|

E E E E +E E E S S S E E Q +E E E E

|-0-----------/5-3-1h3p1-|--------------------|

|---1---1-(1)------------|-0-1-1--(1)---------|

|-----2-------/5-3-2-----|-0-2-2--(2)---------|

|-3----------------------|-----2--(2)---------|

|------------------------|-2-0-0--(0)-0-/8-7--|

|------------------------|--------------------|

H H

Amadd9/G# C/G D/F#

E E E E E E E E E E E E E E E E

|---------7-----7-|-8-----8\-2-----2-|

|-------5---5-----|---5--------3-----|

|-----5-------5---|-----5--------2---|

|---7-----6-------|-5--------4-------|

|-0---------------|------------------|

|-----------------|------------------|

H H H H

Fmaj7 (GAm)

E E E E +E E E T T T T E E H E E

|-0-----------/5-3-1h3p1p0-|---------------|

|---1---1-(1)--------------|-0-1-1---------|

|-----2-------/5-3-2-------|-----2---------|

|-3------------------------|-----2---------|

|--------------------------|-2-0-0----0-2--|

|--------------------------|---------------|

H H

C D Fmaj7 Am

E E E E E E E E E E E E S S Q E

|-------0-2-----2-|-0---(0)-0-----------|

|-1---1-----3-----|---1-------0h1-------|

|---0---------2---|------2--------2-----|

|---------0-------|-3-------------------|

|-3---------------|-----------0-----0-2-|

|-----------------|---------------------|

H H H Q E E

C G D

|-3-|

E E E E E E E E S S E E S S S Q Q

|-------0-3-----3-|-3p2------------------|

|-1---1-----0-----|----------------------|

|---0---------0---|-----0-2-0h2p0--------|

|-----------------|---------------4------|

|-3---------------|-0----------------0-2-|

|---------3-------|----------------------|

H H H Q E E

C D Fmaj7 Am

E E E E E E E E E E E E S S Q E

|-------0-2-----2-|-0-----0-----------|

|-1---1-----3-----|---1-----0h1-------|

|---0---------2---|-----2-------2-----|

|---------0-------|-3-----------------|

|-3---------------|---------0-----0-2-|

|-----------------|-------------------|

H H H Q E E

C D Fmaj7

|-3-| |-3-|

E E E E E E E E E E E S S S S S S Q.

|-------0-2-----2-|-------------------------||

|-1---1-----3-----|-1-0-1-3p1p0-3p1p0-1-----||

|---0---------2---|-------------------------||

|---------0-------|-3-----------------------||

|-3---------------|-------------------------||

|-----------------|-------------------------||

H H H H

1st Verse

Am Amadd9/G# C/G D/F#

E E E E E S S E E E E E E E E E E

|-5-----5-(7)-7-----7-|-8-----8\-2-----2-|

|---5-----------5-----|---5--------3-----|

|-----5-----------5---|-----5--------2---|

|-7--------6----------|-5--------4-------|

|---------------------|------------------|

|---------------------|------------------|

H H H H

Fmaj7 G/Am

|-3-|

E E E E +E E E S S S E E Q +E E E E

|-0-----------/5-3-1h3p1-|--------------------|

|---1---1-(1)------------|-0-1-1--(1)---------|

|-----2-------/5-3-2-----|-0-2-2--(2)---------|

|-3----------------------|-----2--(2)---------|

|------------------------|-2-0-0--(0)-0-/8-7--|

|------------------------|--------------------|

H H

Amadd9/G# C/G D/F#

E E E E E E E E E E E E E E E E

|-----------7-----7-|-8-----8\-2-----2-|

|-------(5)---5-----|---5--------3-----|

|-----5---------5---|-----5--------2---|

|---7-------6-------|-5--------4-------|

|-0-----------------|------------------|

|-------------------|------------------|

H H H H

Fmaj7 (GAm)

E E E E +E E E T T T T E E H E E

|-(0)-----------/5-3-1h3p1p0-|-----------------|

|-----1---1-(1)--------------|-0-(1)-1---------|

|-------2-------/5-3-2-------|-----------------|

|--3-------------------------|-----------------|

|----------------------------|-2--0--0----0-2--|

|----------------------------|-----------------|

H H

C D Fmaj7 Am C G D

|-3-|

E E E E E E E E E E E E S S Q E E E E E E E E E S S E E S S S Q Q

|-------0-2-----2-|-0-----0-----------|-------0-3-----3-|-3p2------------------|

|-1---1-----3-----|---1-----0h1-------|-1---1-----0-----|-----3----------------|

|---0---------2---|-----2-------2-----|---0---------0---|-------2-0h2p0--------|

|---------0-------|-3-----------------|-----------------|-0-------------4------|

|-3---------------|---------0-----0-2-|-3---------------|------------------0-2-|

|-----------------|-------------------|---------3-------|----------------------|

H H H Q E E H H H Q E E

C D Fmaj7 Am

E E E E E E E E E E E E S S Q E

|-------0-2-----2-|-0-----0-----------|

|-1---1-----3-----|---1-----0h1-------|

|---0---------2---|-----2-------2-----|

|---------0-------|-3-----------------|

|-3---------------|---------0-----0-2-|

|-----------------|-------------------|

H H H Q E E

C D Fmaj7

|-3-| |-3-|

E E E E E E E E E E E S S S S S S Q.

|-------0-2-----2-|---------------------------|

|-1---1-----3-----|-1-0--1--3p1p0-3p1p0-1-----|

|---0---------2---|---------------------------|

|---------0-------|-3-3-(3)-------------------|

|-3---------------|---------------------------|

|-----------------|---------------------------|

H H E E +H.

Am Amadd9/G# C/G D/F#

E E E E E E E E E E E E E E E E

|-5-----5-7-----7-|-8-----8\-2-----2-|

|---5-------5-----|---5--------3-----|

|-----5-------5---|-----5--------2---|

|-7-------6-------|-5--------4-------|

|-----------------|------------------|

|-----------------|------------------|

H H H H

Fmaj7 (GAm7

E E E E +E E E T T T T E E Q +E E E E

|-0-----------/5-3-1h3p1p0-|---3-3--(3)---------|

|---1---1-(1)--------------|-0-1-1--(1)---------|

|-----2-------/5-3-2-------|--------------------|

|-3------------------------|--------------------|

|--------------------------|-2-0-0--(0)-0-/8-7--|

|--------------------------|--------------------|

H H

Am Amadd9/G# C/G Dadd9/F#

E E E E S S S S S S S S S S S S S S S S S S S S S S S S

|---------------7-------(7)-|-------8-------x-------0---------|

|-------5-----5---5---------|-----5---5-----------3---3-----x-|

|-----5-----5-------5-------|---5-------5-------2-------2-----|

|---7-----6-----------6-----|-5-----------5---4-----------4---|

|-0-------------------------|---------------------------------|

|---------------------------|---------------------------------|

Fmaj7 G/Am G/B

Gtrs II, III

S S S S +S S E S S S S S S E E E H Q

|-------0-(0)-----------0-------|----------^3---||

|-----1-------1-------1---1-----|-0-1-1----^3---||

|---2-----------2---2-------2---|-0-2-2----^0---||

|-3---------------3-----------3-|----------^0---||

|-------------------------------|-2-0-0----^2---||

|-------------------------------|---------------||

1st Interlude

Am7 Am Dsus4 D Dsus4 Dadd9

E S S E E E E E E E E S S S S S S S S S S S S

|---3-3-3-3---0---3-|---2---3-----2-----0-----2p0-|

|---1-1-1-1---1---3-|---3-3---3-----3-------3-----|

|---2-2-2-2---2---2-|---2-2-----2-----2---2-------|

|---2-2-2-2---2---0-|---0-0-----------------------|

|-0-----------0-----|-----------------------------|

|-------------------|-----------------------------|

Am7 Am Em/D D C/D D

E S S E E E E E E E E E E E E S S S S

|---3-3-3-3---0---7-|---5---3---5-----------|

|---1-1-1-1---1---8-|---7---5---7---7-------|

|---2-2-2-2---2---9-|---7---5---7-7---------|

|---2-2-2-2---2-0-0-|---0-0-0---0-7---------|

|-0-----------0-----|-----0-----------6-7---|

|-------------------|-----------------------|

Am7 Am Dsus4 D Dsus4 Dadd9

E S S E E E E E E E E S S S S S S S S S S S S

|---3-3-3-3---0---3-|---2---3-----2-----0-----2p0-|

|---1-1-1-1---1---3-|---3-3---3-----3-------3-----|

|---2-2-2-2---2---2-|---2-2-----2-----2---2-------|

|---2-2-2-2---2---0-|---0-0-----------------------|

|-0-----------0-----|-----------------------------|

|-------------------|-----------------------------|

Am7 Am Em/D D C/D D

E S S E E E E E E E E E E E E E E

|---3-3-3-3-----0---7-|---5-----3---5------||

|---1-1-1-1-(0)-1---8-|---7-----3---7------||

|---2-2-2-2-----2---9-|---7-(0)-5-x-7------||

|---2-2-2-2-----2-x-0-|---0-----0-x-0------||

|-0-------------0-x---|---------------0-2--||

|---------------------|--------------------||

2nd Verse

C G/B Am C G/B F Am

E E E E E E E E E E E S S E E S S S S E E E E E E E E E Q. +Q E E

|-----------------|-----------------------|---------------1-|---0----(0)-------|

|-----------------|-------1p0-------------|---------------1-|---1----(1)-------|

|-----0-------0---|-----2-----2-----------|-----0-------0-2-|---2----(2)-------|

|---2-------0---0-|---2-----------2-2-----|---2-------0---3-|---2----(2)-------|

|-3-----3-2-------|-0-----------0-----0-2-|-3-----3-2-------|---0----(0)--0-2--|

|-----------------|-----------------------|-----------------|------------------|

C G/B Am

E E E E E E E E E E E S S E E S S S S

|-----------------|---------------0-------|

|-----------------|-------1p0-------3-----|

|-----0-------0---|-----2-----2-----------|

|---2-------0---0-|---2-------------------|

|-3-----3-2-------|-0-----------0-----0-2-|

|-----------------|-----------------------|

C G/B F Am C G/B

E E E E E E E E E Q. +Q E E E E E E E E E E

|---------------1-|---0----(0)------|-----------------||

|---------------1-|---1----(1)------|-----------------||

|-----0-------0-2-|---2----(2)------|-----0-------0---||

|---2-------0---3-|---2----(2)------|---2-------0---0-||

|-3-----3-2-------|---0----(0)--0-2-|-3-----3-2-------||

|-----------------|-----------------|-----------------||

2nd Interlude

Am7 Am Dsus4 D Dsus4 Dadd9

E S S E E E E E E E E S S S S S S S S S S S S

|---3-3-3-3---0---3-|---2---3-----2-----0-----2p0-|

|---1-1-1-1---1---3-|---3-3---3-----3-------3-----|

|---2-2-2-2---2---2-|---2-2-----2-----2---2-------|

|---2-2-2-2---2---0-|---0-0-----------------------|

|-0-----------0-----|-----------------------------|

|-------------------|-----------------------------|

Am7 Am Em/D D C/D

E S S E E E E E E E E E E S S S S S S S S

|---3-3-3-3---0---7-|---5---3-----------------|

|---1-1-1-1---1---8-|---7---5-----------------|

|---2-2-2-2---2---9-|---7---5-----------------|

|---2-2-2-2---2---0-|---0---0---------------7-|

|-0-----------0-----|---------0-6-7-6-7-6-7---|

|-------------------|-------------------------|

Am7 Am Dsus4 D Dadd9

E S S S S E E E E E S S S S +S S S S S S S S S S S S

|---3-3-3-3-3---0-----|-------3-------2-----0-----2p0-------|

|---1-1-1-1-1---1---3-|-----3---3-(3)---3-----3-------3-----|

|---2-2-2-2-2---2-0-2-|-(0)---------------2-----2-------2---|

|---2-2-2-2-2---2---0-|-(0)-------------------------------0-|

|-0-------------0-----|-------------------------------------|

|---------------------|-------------------------------------|

Am7 Am Em/D D C/D D

E S S E E E E E E E E E E +E a E E E

|---3-3-3-3---0-----7-|---5-(0)-3-(3)-3s5-----||

|---1-1-1-1---1-----8-|---7-(0)-5-(5)-5s7-----||

|---2-2-2-2---2-(0)-9-|---7-(0)-5-(5)-5s7-----||

|---2-2-2-2---2-(0)-0-|---0-----0-(0)-0-------||

|-0---------0-0-------|-0-----------------0-2-||

|---------------------|-----------------------||

3rd Verse

C G/B Am

E E E E S S S S S S E S S S S S S S S S S S S S S S S

|-------0---------0-----|---5-----7-----8-----7-----7-----|

|-----------3---3---3---|-----5-----5-------5---5---------|

|-----0-------0-------0-|---------------------------------|

|---2-------------------|-7-----7-----7---7-------7-------|

|-3-------2-------------|-----------------------------0-2-|

|-----------------------|---------------------------------|

Cadd9 G/B F Am

S S S S S S S S S S S S E E E Q. +Q E E

|---------0-----------------1-|---0----(0)--------|

|-------3---3---------------1-|---1----(1)--------|

|-----0-------0-------0-----2-|---2----(2)--------|

|---2---------------0-----0-3-|---2----(2)--0-----|

|-3-------------3-2-----2-----|---0----(0)----2---|

|-----------------------------|-------------------|

C G/B Am

S S S S S S S S S S S S S S S S S S S S S S S S S S S S S S S T T

|---0-----0---------------0-------|---5-----7-----8-----7---5---------|

|-------1---3-1-------------------|-----5-----5-------5---5-----------|

|-----0---------0-----0-----0---0-|-----------------------------------|

|-------------------0---------0---|-------7-----7---7---------7-------|

|-3---------------2-----2---------|-0-----------------------------0-2-|

|---------------------------------|-----------------------------------|

C G/B F Am C G/B

E E S S E S S S S E E E Q. +Q E E E E E E E E E E

|-------0-------------1-|---0----(0)------|------------------||

|-----x-------3-----3-1-|---1----(1)------|------------------||

|---------0-----0-----2-|---2----(2)------|-----0-------0----||

|-----------------0---3-|---2----(2)------|---2-------0------||

|-3-3-------2-----------|---0----(0)--0-2-|-3-----3-2-----2--||

|-----------------------|-----------------|------------------||

3rd Interlude

Am7 Am Dsus4 D Dsus4 Dadd9

E S S E E E E E E E E S S S S S S S S S S S S

|---3-3-3-3---0---3-|---2---3-----2-----0-----2p0-|

|---1-1-1-1---1---3-|---3-3---3-----3-------3-----|

|---2-2-2-2---2---2-|---2-2-----2-----2---2-------|

|---2-2-2-2---2---0-|---0-0-----------------------|

|-0-----------0-----|-----------------------------|

|-------------------|-----------------------------|

Am7 Am7 Em/D D C/D

E S S E E E E E E E E E E S S S S S S S S

|---3-3-3-3---0---7-|---5---3-------------------|

|---1-1-1-1---1---8-|---7---3-------------------|

|---2-2-2-2---2---9-|---7---5-------------------|

|---2-2-2-2-------0-|-0---0-------------------7-|

|-0-----------0-0---|---------(0)-6-7-6-7p6-7---|

|-------------------|---------------------------|

Am7 Am D

E S S S S E E E E E S S S S S S a S S a S S S S S S a S S

|---3-3-3-3-3---0-----|-----2-----5-----7------10----------12-------14-|

|---1-1-1-1-1---1-----|-3----------------------------------------------|

|---2-2-2-2-2---2-----|---2---2s5---5s7---7s11----11-11-12----12s14----|

|---2-2-2-2-2---2---0-|------------------------------------------------|

|-0-----------0-0-----|------------------------------------------------|

|---------------------|------------------------------------------------|

Am7 Am Em/D D C/D D

E S S S S E E E E E E E E E E E E E

|---3-3-3-3-3---0-x-7-|---5---3---5-----||

|---1-1-1-1-1---1-x-8-|---7---3---7-----||

|---2-2-2-2-2---2-x-9-|---7---5---7-----||

|---2-2-2-2-2---2-x-0-|---0---0---0-----||

|-0-----------0-0-----|-------------0-2-||

|---------------------|-----------------||

4th Verse

C G/B Am C G/B F Am

E E E E E E E E E E E S S E E S S S S E E E E E E E E E Q. +Q E E

|-----------------|-----------------------|---------------1-|---0----(0)-------|

|---------------3-|-------1p0-------------|---------------1-|---1----(1)-------|

|-----0-------0---|-----2-----2-----------|-----0-------0-2-|---2----(2)-------|

|---2-------0-----|---2-----------2p0-----|---2-------0---3-|---2----(2)--0----|

|-3-----3-2-------|-0-----------0-----0-2-|-3-----3-2-------|---0----(0)----2--|

|-----------------|-----------------------|-----------------|------------------|

C G/B Am

S S S S S S S S S S S S S S S S S S S S S S S S S S S S S S S S

|---------0---------------0-------|---5-----7-----8-----7---5-------|

|-------1---1---1---3-------3-----|-----5-----5-----5-----5---------|

|---0---------0---------0-------0-|---------------------------------|

|-----2---------------0-------0---|-7-----7-----7-----7-------7-----|

|-3---------------2---------------|-----------------------------0-2-|

|---------------------------------|---------------------------------|

C G/B F Am C G/B

S S S S S S S S S S S S S S E E Q. +Q E E E E E E E E E E

|-----------------------------1-|---0----(0)------|--------------------|

|---1-----1-----1---3-----3---1-|---1----(1)------|--------------------|

|-------0-----0-------0-----0-2-|---2----(2)------|-----0-------0------|

|-----2-----------------------3-|---2----(2)------|---2-------0---0----|

|-3---------3-----2-----2-------|---0----(0)--0-2-|-3-----3-2----------|

|-------------------------------|-----------------|--------------------|

4th Interlude

Am7 Am Dsus4 D

E S S E E E E E E E E E E S S S S S S S S

|---3-3-3-3---0---3-|---2-2---3p2-----2p0-----|

|---1-1-1-1---1---3-|---3-3-------3-------3---|

|---2-2-2-2---2---2-|---2-2---------2-------2-|

|---2-2-2-2---2---0-|---0-0-------------------|

|-0-----------0-----|-------------------------|

|-------------------|-------------------------|

Am7 Am Em/D D C/D

E S S E E E E E E E E E E S S S S S S S S

|---3-3-3-3---0---7-|---5---3-------------------|

|---1-1-1-1---1---8-|---7---5-------------------|

|---2-2-2-2---2---9-|---7---5-------------------|

|---2-2-2-2---2---0-|---0---0---------------7---|

|-0-----------0-----|-----------6-7-6-7-6-7-----|

|-------------------|---------------------------|

Am7 Am D

E S S E E E E E E +S S S S S S S S S S S S S S a S S

|---3-3-3-3---0-----|---------------7-------10----------12-------14-|

|---1-1-1-1---1-----|-----3-----------------------------------------|

|---2-2-2-2---2---2-|-(2)-2-2-4-5s7---5-/11----11-11-12----12s14----|

|---2-2-2-2---2---0-|-(0)-------------------------------------------|

|-0-----------0-----|-----------------------------------------------|

|-------------------|-----------------------------------------------|

Am7 Am Em/D D C/D D

E S S E E E E E E E E E E E E E E

|-------3-3-3-----0---7-|---5---3---2------||

|-------1-1-1-(0)-1---8-|---7---5---3------||

|---(0)-2-2-2-----2---9-|---7---5---2------||

|-------2-2-2-----2---0-|---0---0---0------||

|-------0-0-0-----0-----|-------------0-2--||

|-----------------------|------------------||

5th Verse

C G/B Am C G/B F

E S S E E E E E E E S S +E E S S S S E S S E E E E E E E E

|-------------------|---------------------------|---------------1-|

|-------1---------3-|-1-x-1-(1)-1---1-----------|---------------1-|

|-----0---0-----0---|-2-x-2-(2)-2---2---0-2-----|-----0-------0-2-|

|---2---------0-----|-2-x-2-(2)-2---2-----2-----|---2-------0---3-|

|-3---------2-------|-0-x-0-(0)-0---0-----0-0-2-|-3-----3-2-------|

|-------------------|---------------------------|-----------------|

Am C G/B

E Q. +Q E E S S S S E S S S S S S S S S S

|---0----(0)------|----------------------------------|

|---1----(1)------|---------3---1---3-------3--------|

|---2----(2)------|---0-------0---------0-------0----|

|---2----(2)------|-----2-------------0-------0------|

|---0----(0)--0-2-|-3-----3-------2-------2----------|

|-----------------|----------------------------------|

Am C G/B F

S S S S S S S S S S S S S S S S S S S S S S S S S S S S E E

|---5-----7-----8-----7-----7-----|---------------------------1-|

|-----5-----5-------5---5---------|---1-----1-----1---3-------1-|

|---------------------------------|-------0-----0-------0---0-2-|

|-7-----7-----7---7-------7-------|-----2-------------------0-3-|

|-----------------------------0-2-|-3---------3-----2-----2-----|

|---------------------------------|-----------------------------|

Am C G/B

E Q. +Q E E E E E E E E E E

|---0----(0)------|------------------||

|---1----(1)------|-------------3-3--||

|---2----(2)------|-----0-------0-0--||

|---2----(2)------|---2-------0------||

|---0----(0)--0-2-|-3-----3-2--------||

|-----------------|------------------||

Bridge

Faster Q=108

D DsDs2 Dsus4DsusDsus4Dsus2 Dsus4 D

3/4

H.. S S Q. S S Q. S S Q Q Q

|-2---------0-2-|-3----0-2-3----0-2-|-3--3--2--|

|-3---------3-3-|-3----3-3-3----3-3-|-3--3--3--|

|-2---------2-2-|-2----2-2-2----2-2-|-2--2--2--|

|-0---------0-0-|-0----0-0-0----0-0-|-0--0--0--|

|---------------|-------------------|----------|

|---------------|-------------------|----------|

Cadd9 Csus2 Cadd9 DsusD

4/4 5/4

Q E E +S S E Q a E a E E E +S S E Q E S S

|------2-(2)-2-2----|-----------2-(2)-2-2-0----0-2---|

|-3----3-(3)-3-3-3--|-----------3-(3)-3-3-3----3-3---|

|-0--0-----------0--|-----------0-(0)-0-0-0----2-2---|

|-2--2--------------|--------------------------0-0---|

|-3--3-----------3--|-0h3-0h3-3-----------3--3-------|

|-------------------|--------------------------------|

Dsus4DsusDsus4DsDs2 Dsus4 D C

4/4 7/8

Q. S S Q. S S Q Q Q E

|-3----0-2-3----0-2-|-3--3--2----|

|-3----3-3-3----3-3-|-3--3--3----|

|-2----2-2-2----2-2-|-2--2--2--0-|

|-0----0-0-0----0-0-|-0--0--0--2-|

|-------------------|----------3-|

|-------------------|------------|

Cadd9 Gmaj7/B

4/4

|-3-|

+E E E. S E E E S S E Q E +E E S S S E

|----------------------|------2-(2)------------||

|-------3--3-3-3-------|------3-(3)-3----------||

|-(0)---0--0-0-2-------|------0-(0)------------||

|-(2)---2--2-2-0-------|------0-(0)------------||

|-(3)-3------3-3-3-3p0-|-2-2--2-(2)---2p0---0--||

|----------------------|------------------3----||

Guitar Solo

Am Am/G F

+E E E E +E E E E S S S S E S S +S S E S S E

|---------0-(0)-------|-----------------------------|

|-------1---------1---|---1-----3---1-(1)---3-1---1-|

|-------2-----------2-|-----2-------------2-----2---|

|-------2-------------|-------3---3-----------------|

|-(0)-0---------------|-----------------------------|

|---------------3-----|-1---------------------------|

Am G Gmaj7/B

GtGtr IV

E S S E E S S S S E E S S S S S E S +E E E E

|--------------3---------|--------8----------------------|

|------------3---3---3---|---9-10---10----10-(10)--------|

|----5---5---------4---4-|-------------10-------------5--|

|-/7---7---7-------------|--------------------------7----|

|------------------------|-------------------------------|

|------------------------|-------------------------------|

~~~~~~~~~

a +Q +Q +E S S S S S S S S S S Q E a +E E E

|---------------------5-----------|-----------------------8-8-|

|-----------------------8p5-------|--------------8b10-(8)-----|

|-7b9==(7)--(7)--(7)r-------7p5---|-7p5-----------------------|

|-------------------------------7-|-----7p5-------------------|

|---------------------------------|---------8--x--------------|

|---------------------------------|---------------------------|

~~~

S a +E. a +E E S E. E. S S S S S S E. E S S S S S S

|-8-8b10-(8)-8pb10r(8)-5-------8--10p|=8---------------------8-10p8------|

|----------------------5-8-10--------|---10p8---8h10----8-10--------10p==|

|------------------------------------|--------9--------------------------|

|------------------------------------|-----------------------------------|

|------------------------------------|-----------------------------------|

|------------------------------------|-----------------------------------|

S S S S S S S S S S S S S S S S S S S S E S S E S S S S S S

|--------------------------------------|--------------------------------|

|-8---10---8-10p8---10---8-10p8---10---|-8-10p8---10-8-10p8-8-----------|

|---9----9--------9----9--------9----9-|--------9-------------9-7p5---5-|

|--------------------------------------|----------------------------7---|

|--------------------------------------|--------------------------------|

|--------------------------------------|--------------------------------|

~~~~~~

|-3-|

S S S S S S S S S S S S S S S S S S S S S +Q Q E E

|-----------------------------------|-----------------8------|

|---------------------------5-5-----|-------------------8----|

|-7p5---5-------------------5-5---5-|------------------------|

|-----7---7p5---7---5-7p5-------7---|-7-6-5------------------|

|-------------7---7-------7---------|-------8-(8)------------|

|-----------------------------------|------------------------|

|3-| |-3-| |-3-| |---3---| |-3-| |-3-| |-3-|

E +E Q +E S S S S S S S S S E T S T E E S S S S S S E +E S S S

|------------8--(8)-------8-----------|-------------------------------------|

|-------------------------------------|-------------------------------------|

|-7pb9r(7)b9--------7p5---5-7---5h7p5-|---5h7p5-----------------------------|

|-----------------------7-----7-------|-7-------7-7---5h7p5-5-5-------5-x-7-|

|-------------------------------------|-------------7-----------8-(8)-------|

|-------------------------------------|-------------------------------------|

~

|-3-| |-3-| |-3-| |-3-| |-3-| |-3-|

E S S S E S S S E S S S E S S S E S S S E S S S a +E E S S S a S

|---------------------------------|-----------------8b10-(8)-8-5---5---------|

|---------------------------------|-6---8---8---6-8--------------8---8h10----|

|-5-----7-7-----5-5-----7-7-------|-----------7------------------------------|

|---5-7-----5-7-----5-7-----7-7-7-|---5--------------------------------------|

|---------------------------------|------------------------------------------|

|---------------------------------|------------------------------------------|

|--3--| |-----5-----|

+E. S E S a +S +E E E S a +S S S S S S S +S E S E a +E S S S S S

|------8------10b12-(10)-(10)-10-8-10-10b12-(10)-10-8-|-10p8---------------------------------------------|

|-(10)---10-------------------------------------------|------10-10-(10)-10-----13b17-(13)-13-10----13-10-|

|-----------------------------------------------------|-----------------------------------------12-------|

|-----------------------------------------------------|--------------------------------------------------|

|-----------------------------------------------------|--------------------------------------------------|

|-----------------------------------------------------|--------------------------------------------------|

|----------6----------| |--------5--------|

+S S T T S S T T S S S T T S S T T T T S S S S S

|------------------------------------------------------------------------------|

|-(10)----10h13p10----10h13p10-10----10h13p10----10h13p10----10-13-10-13-12----|

|------12----------12-------------12----------12----------12-------------------|

|------------------------------------------------------------------------------|

|------------------------------------------------------------------------------|

|------------------------------------------------------------------------------|

~~~

|--3--| |--3---| |--3--|

S S S Q. S S S S +S S S S S S

|--------------------------------------------------|

|-13-12h13p10------10-12-13-(13)-12h13p12-10-12b14-|

|--------------------------------------------------|

|--------------------------------------------------|

|--------------------------------------------------|

|--------------------------------------------------|

|--3--| |---3----|

+S S S S E E E E. S S S T T T T E S S E E S S S S E E S S

|-------------------------------------------------|---------------------------13-12-10-----|

|-(12)-12-10-12-13-12p10-12--10-12-13-12h13p12-10-|-12---10-12-13-12h13p12-10----------13--|

|-------------------------------------------------|----------------------------------------|

|-------------------------------------------------|----------------------------------------|

|-------------------------------------------------|----------------------------------------|

|-------------------------------------------------|----------------------------------------|

|--3--| |--3--|

S S S S S S S S T T E E E S T T S S

|-10h12p10----10----------------------------------------|

|----------13----13-12-13p12p10----10-12-13-12h13p12p10-|

|-------------------------------12----------------------|

|-------------------------------------------------------|

|-------------------------------------------------------|

|-------------------------------------------------------|

|--3---| |--3---| |-3--| |---5---| |----6-----| |---5----| |---5---|

a +E E E a +E E E +Q E a +S S S S S S S S +S S S S S S +S S S S S S S S S S

|-----------------------------------------------------5-|-------------------5-------------5--------------------|

|---------------------------------------------------5---|-8-5-8p5---------5---8p5-----------8p5-8p5------------|

|-12b14-(12)-12-10--------------------------7b9-(7)-----|---------7b9-(7)---------7b9-(7)-----------7-5-7p5----|

|------------------12b14-(12)-12-10-(10)----------------|------------------------------------------------------|

|-------------------------------------------------------|------------------------------------------------------|

|-------------------------------------------------------|------------------------------------------------------|

S S a S S S S S S S S E E E E S S S S S S +E S S S S E

|------------------------------|--------------------------8----|

|------------------------------|------------------------8---10-|

|-5----------------------------|--------------5-(5)-7s9--------|

|---7-5h7-5-3------------------|----5---5-6-7------------------|

|-------------3h5p3----------3-|-/7---7------------------------|

|-------------------5-3-1-/5---|-------------------------------|

E S S Q S S S S S E S

|----8-7-----8-7------------------|

|-10-----10------10-8-10-10-13b17-|

|---------------------------------|

|---------------------------------|

|---------------------------------|

|---------------------------------|

+E S S S S E +S S S S S S a +E

|-------------------------------------------------------|

|-(13)-13-10----10-13b17-(13)-13-10----13----13b15-(13)-|

|------------12---------------------12----12------------|

|-------------------------------------------------------|

|-------------------------------------------------------|

|-------------------------------------------------------|

|-----5-----| |---3----| |--3--|

S S S S S S S S S +Q S S S T T S T T S S S S S S S S S E S S E.

|----------------------------------12-13-12-13p|=12p10h12p10-10h12p10----10------------------------|

|-13-10--------12h13p12-10-(10)----------------|----------------------13----13-12---12-12p10-10\---|

|-------12-x-----------------------------------|---------------------------------------------------|

|----------------------------------------------|---------------------------------------------------|

|----------------------------------------------|---------------------------------------------------|

|----------------------------------------------|---------------------------------------------------|

|----------3----------| |----------3-----------|

S S S S S S S S S S S S S S E a +E S S T T +T +T S S +E a +E +T S T E a +E +T S T

|----------------------------------------------|------------------------------------------------------------------------------------------------|

|----------------------------------------------|-13b15-(13)-13----13-15b17==(15)r(15)----13-(13)-15b17==(15)r(15)px---13-15b17==(15)r(15)p13----|

|----------10----------10-------12-12-12-14-14-|---------------14---------------------14----------------------------x------------------------14-|

|-------10----12p10-------12h14----------------|------------------------------------------------------------------------------------------------|

|-10h12-------------12-------------------------|------------------------------------------------------------------------------------------------|

|----------------------------------------------|------------------------------------------------------------------------------------------------|

|----------3-----------| |----------3-----------| |----------3-----------| |----------3-----------|

E a +E +T S T E a +E +T S T E a +E +T S T E a +E +T S T

|-----------------------------------------------------------------------------------------------------------|

|-13-15b17==(15)r(15)p13-13-13-15b17==(15)r(15)p13----13-15b17==(15)r(15)p13----13-15b17==(15)r(15)p13-13---|

|--------------------------------------------------14------------------------14-----------------------------|

|-----------------------------------------------------------------------------------------------------------|

|-----------------------------------------------------------------------------------------------------------|

|-----------------------------------------------------------------------------------------------------------|

|----------3-----------| |----------3-----------| |----------3-----------| |----------3-----------|

E a +E +T S T E a +E +T S T E a +E +T S T E a +E +T S T

|---------------------------------------------------------------------------------------------------------|

|-13-15b17==(15)r(15)p13-13-13-15b17==(15)r(15)p13----13-15b17==(15)r(15)p13----13-15b17==(15)r(15)p13-13-|

|--------------------------------------------------14------------------------14---------------------------|

|---------------------------------------------------------------------------------------------------------|

|---------------------------------------------------------------------------------------------------------|

|---------------------------------------------------------------------------------------------------------|

|--3---| |--3--| |--3--| |--3--| |---3----| |--3--| |-3-| |-3-|

S a +E. +H a +S S S S S S S S S S S S E +E +S S S S S +E +E +E S

|----15b17==(15)-(15)r----15b17==(15)-15-15-15-15-15-|-15-15-15-15-15-15-15r(15)b17==(15)-15-15-15-15r(15)-(15)b17-(15)----------|

|-13-------------------------------------------------|------------------------------------------------------------------15pb17---|

|----------------------------------------------------|---------------------------------------------------------------------------|

|----------------------------------------------------|---------------------------------------------------------------------------|

|----------------------------------------------------|---------------------------------------------------------------------------|

|----------------------------------------------------|---------------------------------------------------------------------------|

|--3---| |-3-|

a +S S S S +E +E. +S E E S S S S

|-15b17==(15)-15-15-15r(15)-(15)b17-(15)-17-15-13----------|

|-------------------------------------------------13----13-|

|----------------------------------------------------14----|

|----------------------------------------------------------|

|----------------------------------------------------------|

|----------------------------------------------------------|

~~

|--3--| |--3--| |-3--| |3-| |--3--|

a +E S S S E S S H S S S S S S +E E S E S S S S S S T T

|------------------------------------|-----------------------------------------12-----------|

|-15b17==(15)r15p13----15---13-15----|---12h13p12---12-(12)-----12----12-13-15----15-13p12--|

|-------------------14---------------|------------x----------------12-----------------------|

|------------------------------------|------------------------------------------------------|

|------------------------------------|------------------------------------------------------|

|------------------------------------|------------------------------------------------------|

|--3--| |--3--| |--3--|

S S S T T T T S S S S S S S S S S S S S S

|----------------------------------------------------------------|

|-12h13p12---12-(0)----------------------------------------------|

|----------x--------12----14p12-12-14p12----12-------------------|

|----------------------14----------------14----15-14-12----12-14-|

|-------------------------------------------------------13-------|

|----------------------------------------------------------------|

|--3--| |--3--| |-3--| |--3--|

S T T T T S E E E E E E +Q S T T S S E. S S S S S S S S S S S

|---------------------------------------------|--------------------------------------------------|

|---------------------------------------------|-----------------------------------------12h13p12-|

|---------------------------------------------|---------------------------------12h14-x----------|

|-15-14h15p14p12------12----------------------|------------------------12-14-15------------------|

|----------------[15]----15-14-12-14-15-(15)--|---14h15p14-x-12--14-15---------------------------|

|---------------------------------------------|--------------------------------------------------|

S S S T T S S S S a +E E S S S S a +Q +S S S S S S S S S S S S

|----------12-13-12----12-13-15b17-(15)-15-13----------|--------------------15-----------15-----------15-----------15-|

|-12-13-15----------15------------------------13----13-|-15b17-(15)--(15)------15-15pb17----15-15pb17----15-15pb17----|

|------------------------------------------------14----|--------------------------------------------------------------|

|------------------------------------------------------|--------------------------------------------------------------|

|------------------------------------------------------|--------------------------------------------------------------|

|------------------------------------------------------|--------------------------------------------------------------|

|-----3------| |--3--|

S S S S S T T E +E S S S S E E E

|-----------15-----------------------------------------------|

|-15-15pb17----15-15pb17-15p13-15-(15)-12-13-12----12-13-12--|

|-----------------------------------------------14-----------|

|------------------------------------------------------------|

|------------------------------------------------------------|

|------------------------------------------------------------|

~~

|-----3-----|

Q a +E E S S a +S S S S a +S S E S S S S S S S S E E Q

|----------------------------------------------------------|-------------------------------------|

|---------------12-13p12------------12-13p12------------12-|-13-12h13p12----12-------------------|

|----14b16-(14)----------14b16-(14)----------14b16-(14)----|-------------14----14-12----14-12----|

|----------------------------------------------------------|-------------------------14-------x--|

|----------------------------------------------------------|-------------------------------------|

|----------------------------------------------------------|-------------------------------------|

|-3--| |-3-| |-3-| |-3-| |-3-|

a +S S S T T T T a +S S T T T T S S S S S S S S S S S S

|-----------5-----------------------------------------------------|

|---------5-------------------5-----------------------------------|

|-7b9-(7)-----8p5-8p5-7b9-(7)---7p5-7p5---7-5---5-------------5---|

|---------------------------------------7-----7---7-7p5---5-7-----|

|-------------------------------------------------------7---------|

|-----------------------------------------------------------------|

~~~~~~~

|-3--| |3-| |3|

S S S S S S S E +E S S E E a +E

|-----------8------------8h10-----10b12-(10)-|

|-------------10-10-(10)---------------------|

|-5---5-7s9----------------------------------|

|---7----------------------------------------|

|--------------------------------------------|

|--------------------------------------------|

e e S S S a +S S E S S S E a +E E S S S S S S S S S S E

|-10-8-10-8----10b12-(10)---10-8-10p8----|-10b12-(10)-10-8-10-8----10----8-10p8--------|

|-----------10------------------------10-|----------------------10----10--------10-(0)-|

|----------------------------------------|---------------------------------------------|

|----------------------------------------|---------------------------------------------|

|----------------------------------------|---------------------------------------------|

|----------------------------------------|---------------------------------------------|

|-----7-----| |-----7-----| |-3-| |-3-|

S S S S S S S S S S S S S S E E E S S S S S

|-8p5---8p5---8p5---8p5---8p5---8-7p5---5-8---|

|-----5-----5-----5-----5-----8-------8-----5-|

|---------------------------------------------|

|---------------------------------------------|

|---------------------------------------------|

|---------------------------------------------|

|-3-| |-3-| |-3-| |-3-|

S S S S T T E S S +S T T E S S E S S S S S S a S S S S S S S S S +E E

|-------------------------8-------------|-----------------------------8---------------|

|-----------------10-(10)---10-10-------|---------------------------8---10b12r(10)----|

|-5h7p5---7p5---------------------------|-------5-7p5-7s9-7p5---5S9-------------------|

|-------7-----7-------------------------|-7-5-7---------------7-----------------------|

|---------------------------------5h7-8-|---------------------------------------------|

|---------------------------------------|---------------------------------------------|

|-----5-----| |--3--|

S S S S S S S S S +S S S S S E E

|-------------------------------------------------|

|------12-13-12h13p12----12-(12)-13-12h13p12------|

|---14----------------14---------------------14---|

|-------------------------------------------------|

|-------------------------------------------------|

|-------------------------------------------------|

~~~~~~~

|--3---|

E a +E E E S S S S +S S S S S S e e S S S a +E. E E E

|--------------15----------------------------|----------------------15b17-(15)-15-13-------|

|---15b17-(15)------15-13-15-15-(15)-13------|-13-12-------12-13p12------------------(14)--|

|-----------------x---------------------14---|-------14-14---------------------------------|

|--------------------------------------------|---------------------------------------------|

|--------------------------------------------|---------------------------------------------|

|--------------------------------------------|---------------------------------------------|

a +e e a +e S S +S S E S S e

|------------15--------------------------------------|

|-15b17-(15)----15b17-(15)-15-15-(15)-13----13p12----|

|----------------------------------------14-------14-|

|----------------------------------------------------|

|----------------------------------------------------|

|----------------------------------------------------|

E a +E S S S S +S +E. E a +S S S E S S T T S S +E a +S S S E.

|--------------------------------------------------|-5-----------5-----------------5------|

|-13-15b17-(15)-13-12----------------------------5-|---8-5---8p5---8-(8)---------5---8----|

|---------------------14-14-(14)-(14)\---7b9-(7)---|-------7-------------7b9-(7)----------|

|--------------------------------------------------|--------------------------------------|

|--------------------------------------------------|--------------------------------------|

|--------------------------------------------------|--------------------------------------|

|-3--| |---3----|

a +S S S E +E a +S S S E S a +S S S S E

|-----------5-----------------5---------------5-8---|

|---------5---8-(8)---------5---8-5---------5-----8-|

|-7b9-(7)-----------7b9-(7)---------7b9-(7)---------|

|---------------------------------------------------|

|---------------------------------------------------|

|---------------------------------------------------|

|--3--|

+E a +E E E S S S E. +E E S S S S S S S S S S S S S S S S

|-------------5------------------|-------------------------------------------------|

|-(8)-----------8-8---x-8--(8)---|----------------------------------------------15-|

|-----7b9-(7)-------x------------|----------10-------------------12----12-14-14----|

|--------------------------------|-------10----12s10----10-12s14----14-------------|

|--------------------------------|-10s12-------------12----------------------------|

|--------------------------------|-------------------------------------------------|

a +E. +T T E E a +E. +T T E a +E

|-------------------------------------------------15b17==(15)-|

|-15b17==(15)r(15)p13------15b17==(15)r(15)p13----------------|

|---------------------14-----------------------14-------------|

|-------------------------------------------------------------|

|-------------------------------------------------------------|

|-------------------------------------------------------------|

+E T S T T S T T S T T S T T S T S +S E a +E. +T T E E a +E. +T T E a +E

|-(15)-x-15-x-15-x-15-x-15-x-15-x-15-x-15-x-15r(15)-13-|-------------------------------------------------15b17==(15)-|

|------------------------------------------------------|-15b17==(15)r(15)p13------15b17==(15)r(15)p13----------------|

|------------------------------------------------------|---------------------14-----------------------14-------------|

|------------------------------------------------------|-------------------------------------------------------------|

|------------------------------------------------------|-------------------------------------------------------------|

|------------------------------------------------------|-------------------------------------------------------------|

+Q E S a +S S a +S S T T E. S

|-(15)r----------------------------------------------|

|---------------------------------------14-12-14p(0)-|

|--------14---14b17-(14)---14b17-(14)----------------|

|----------------------------------------------------|

|----------------------------------------------------|

|----------------------------------------------------|

a +E. +T T E E a +E. +T T E a +E E E S S S S S S S S S S E

|-------------------------------------------------15b17-(15)-|---15-12-13-12----12---------------------|

|-15b17==(15)r(15)p13------15b17==(15)r(15)p13---------------|---------------15----13-15-12-13---------|

|---------------------14-----------------------14------------|---------------------------------14-12---|

|------------------------------------------------------------|-----------------------------------------|

|------------------------------------------------------------|-----------------------------------------|

|------------------------------------------------------------|-----------------------------------------|

+E E E E a +E. +T T E E

|--------------------------------------|

|-------------15b17==(15)r(15)p13------|

|-(12)---14-----------------------14---|

|--------------------------------------|

|--------------------------------------|

|--------------------------------------|

Finale

A5 G5

Gtrs V, VI

|3-| |--3--| |--3--| |--3--| |--3--| |--3--|

E S S S S S S S S S S S S S S S S E E E E Q E E Q

|------19p17----19p17----19p17----19p17----19p17----19\---||---------------|

|---17-------17-------17-------17-------17-------17-------||---------------|

|---------------------------------------------------------||---------------|

|---------------------------------------------------------||-7-7----5-5----|

|---------------------------------------------------------||-7-7----5-5----|

|---------------------------------------------------------||-5-5----3-3----|

F F5G5 A5 G5

E S S S S S S S S S S E E E E Q E E Q

|-1-x-1---x-1---x-1---x-1-3-|--------3-3----|

|-1-x-1---x-1---x-1---x-1-3-|-5-5----3-3----|

|-2-x-2---x-2-2-x-2---x-----|---------------|

|-3-x-3---x-3---x-3---x-3-5-|-7-7----5-5----|

|-3---3-----3-----3-----3-5-|-7-7----5-5----|

|-1---1-----1-----1-----1-3-|-5-5----3-3----|

F F5G5 A5 G5

E S S E E S S E E E E E S S S S E E S S S S

|-1-x-1---1-x-1-------|-------------------3------|

|-1-x-1---1-x-1---1-3-|-5-5-x-x-x-x-3-3-x-3---0--|

|-2-x-2---2-x-2-------|--------------------------|

|-3-x-3---3-x-3---3-5-|-7-7-x-x-x-x-5-5-x-5------|

|-3---3---3---3---3-5-|-7-7-x-x-x-x-5-5-x-5------|

|-1---1---1---1---1-3-|-5-5---------3-3----------|

F5 G5 A5 G5

S S S S S S E S S S S E E E E Q E E S e S

|-1-x-x-1---x-1-x-1-x-x-1-3-|-5-5--------x-3-x-|

|-1-x-x-1---x-1-x-1-x-x-1-3-|-5-5----3-3-x-3-x-|

|---------------------------|------------------|

|-3-x-x-3---x-3-x-3-x-x-3-5-|-7-7----5-5-x-5-x-|

|-3---------------3-----3-5-|-7-7----5-5-------|

|-1---------------1-----1-3-|-5-5----3-3-------|

N.C. A5 G5

E. S +E E +S E S E E E E S S S S E E S S S S

|-------------------------|--------------------------|

|-------------------------|-5-5---------3-3-x-x-x-x--|

|----------5-(5)-/9-9-7-5-|--------------------------|

|-3--7-(7)----------------|-7-7-x-x-x-x-5-5-x-x-x-x--|

|----------3-(3)-/7-7-5-3-|-7-7-x-x-x-x-5-5-x-x-x-x--|

|-1--5-(5)----------------|-5-5-x-x-x-x-3-3----------|

N.C. A5 G5

E. S +E E +S E S E E E E E E E E S S S S

|-------------------------|-----------------------|

|-------------------------|-5-5---(3)-3-3---------|

|----------5-(5)-/9-9-7-5-|-----------------------|

|-3--7-(7)----------------|-7-7-------5-5-x-x-x-x-|

|----------3-(3)-/7-7-5-3-|-7-7-------5-5-x-x-x-x-|

|-1--5-(5)----------------|-5-5-------3-3-x-x-x-x-|

N.C. A5 G5

E. S +E E +S E S E E E E S S S S E E S S S S

|-------------------------|--------------------------|

|-------------------------|-5-5---------3-3-x-x-x-x--|

|----------5-(5)-/9-9-7-5-|--------------------------|

|-3--7-(7)----------------|-7-7-x-x-x-x-5-5-x-x-x-x--|

|----------3-(3)-/7-7-5-3-|-7-7-x-x-x-x-5-5-x-x-x-x--|

|-1--5-(5)----------------|-5-5-x-x-x-x-3-3----------|

N.C. A5 G F Am G F

E. S +E E +S E S E E E E Q E E E E +W E E Q E E E E

|-------------------------|--------------1-|-(1)--------|--------------1--|

|-------------------------|-5-5----------1-|-(1)--------|-5-5----------1--|

|----------5-(5)-/9-9-7-5-|--------4-4---2-|-(2)--------|-5-5----4-4---2--|

|-3--7-(7)----------------|-7-7----5-5---3-|-(3)--------|-7-7----5-5---3--|

|----------3-(3)-/7-7-5-3-|-7-7----5-5---3-|-(3)--------|-7-7----5-5---3--|

|-1--5-(5)----------------|-5-5----3-3---1-|-(1)--------|-5-5----3-3---1--|

N.C.

+H. Q E E S S E S E. S S E

|-(1)---------|------8-----------7---7-|

|-(1)---------|----0----------8----8---|

|-(2)---------|--------5------7----7---|

|-(3)---------|-/7-------7-/9----------|

|-(3)---------|------------------------|

|-(1)---------|------------------------|

S S S S E S S +E E S S E S S E +S S E S S S S S S S S

|---------------------------------------|------------------------10---7---|

|----10-------13----12-(12)-10----10----|---0-0-(0)--------8--------------|

|-------10---------------------12----12-|-----------5--------7------7-----|

|-10-------10----10---------------------|-7-----------7-/9-----9--------9-|

|---------------------------------------|---------------------------------|

|---------------------------------------|---------------------------------|

S S S S E S S +S S E S S E

|-----------------------------------------|

|---10-------13----12-(12)----10----10----|

|------10------------------------12----12-|

|---------10----10---------10-------------|

|-----------------------------------------|

|-----------------------------------------|

S S E S S S S S S E E E S S E E S S +E E S S E

|-------8---5---7-----10-7-|-------------------------------------|

|-8-0-------------8--------|---10----13----12-(12)-10----10------|

|-----5-5-5-5s7-----7------|------10----10------------12----12\--|

|--------------------------|-------------------------------------|

|--------------------------|-------------------------------------|

|--------------------------|-------------------------------------|

Slower Q=100

S S S S E S S S S E S S E Q Q H +W

|---------8---------10-7---x-|--/8\--------1----|-(1)----*|

|---8---------8---5------8---|-/10\--/10\--1----|-(1)----*|

|-----5-----5---7------------|-------/10\-------|--------*|

|-7-----7--------------------|------------------|--------*|

|----------------------------|------------------|--------*|

|----------------------------|------------------|--------*|

--------------------------------------------------------------------------------

Duration Legend

---------------

W - whole; H - half; Q - quarter; E - 8th; S - 16th; T - 32nd; X - 64th; a - acciaccatura

+ - note tied to previous; . - note dotted; .. - note double dotted

Uncapitalized letters represent notes that are staccato (1/2 duration)

Irregular groupings are notated above the duration line

Duration letters will always appear directly above the note/fret number it represents the

duration for. Duration letters with no fret number below them represent rests. Multi-

bar rests are notated in the form Wxn, where n is the number of bars to rest for. Low

melody durations appear below the staff

Tablature Legend

----------------

h - hammer-on

p - pull-off

b - bend

pb - pre-bend

r - bend release (if no number after the r, then release immediately)

/\ - slide into or out of (from/to "nowhere")

s - legato slide

S - shift slide

<n> - natural harmonic

[n] - artificial harmonic

n(n) - tapped harmonic

~ - vibrato

tr - trill

T - tap

TP - trem. picking

PM - palm muting

\n/ - tremolo bar dip; n = amount to dip

\n - tremolo bar down

n/ - tremolo bar up

/n\ - tremolo bar inverted dip

= - hold bend; also acts as connecting device for hammers/pulls

<> - volume swell (louder/softer)

x - on rhythm slash represents muted slash

o - on rhythm slash represents single note slash

Misc Legend

-----------

| - bar

|| - double bar

||o - repeat start

o|| - repeat end

*| - double bar (ending)

: - bar (freetime)

$ - Segno

& - Coda

Tempo markers - <E/E./Q/Q./H/H.> = BPM(8/16=s8/s16), where s8 = swing 8ths, s16 = swing 16ths

Share this post


Link to post
Share on other sites

This is great! Thanks for the tab JimmyPageZoso56. Although no amount of tablature is going to ever make me "play like Page" :P .

I have the 'Led Zeppelin Complete" songbook that was printed in 1973. It has the music for all the first five albums but unfortunately it's just for the vocal line, so it's pretty useless for playing guitar.

Share this post


Link to post
Share on other sites

Thanks for the advice. I'm also finding that there are some songs you can play and others you can just sit there and look out for hours and not follow. It is a good book but now they've made one specifically for guitar, so thats probably more what I need. Never the less, I'm hanging on to this one, and I will give Since I've Been Loving You a go.

Share this post


Link to post
Share on other sites
Leddy. I wasnt getting "smart" with you. Just the key was the question. Since its F# it starts with, its mainly just hammering the same note one octave apart for the main riff I believe. Well I dont believe, I know. How about that tab post below? Well must thank him. I know how to play Stairway, I supposee everyone plays the lead a bit differantly. Im going to check out this tab. Thanks to all!

I didn't think you were mate, I have been under the weather and I will use that for an excuse if my posts have come across arse like !! :rolleyes::)

Share this post


Link to post
Share on other sites
Leddy. I wasnt getting "smart" with you. Just the key was the question. Since its F# it starts with, its mainly just hammering the same note one octave apart for the main riff I believe. Well I dont believe, I know. How about that tab post below? Well must thank him. I know how to play Stairway, I supposee everyone plays the lead a bit differantly. Im going to check out this tab. Thanks to all!

Well.. that's kind of exactly what he said...

Share this post


Link to post
Share on other sites

Hey guys, I can read tab but i'm far from an expert at it, I usually play acoustically, can anyone find or write me a Going To California Tab? I've looked on Ultimate-Guitar.com and I can't make sense of them, the shapes of your left hand I mean..

Please :)

Thanks for reading.

Share this post


Link to post
Share on other sites
I have it printed from the old site called olga.net that was shut down for legal reasons. It is in drop D I believe. Ill dig it out when I get a chance and see what I can do. It involves finger picking. Ill see if i can figure out a way to scan it and post it. the website has been down for almost a year because of these fucking lawyers.

Oh thanks very much :) I'm pretty good with fingerpicking, so that's no too much of a porblem, i can play Blackbird, Julia and Dear Prudence by the Beatles and now Bron-Yr-Aur :)

Thanks again, I look forward to it!

Share this post


Link to post
Share on other sites

For Going To California drop both E strings to D. According to my tab book, anyways!

P.S. I would scan some pages from my book, but on each page it has Guitar 1, Guitar 2, Mandolin 1, and Mandolin 2 parts, so literally only one line of the song is transcribed per page!! The whole thing is 24 pages!! :wacko:

Edited by songbird

Share this post


Link to post
Share on other sites

Oh... my book doesn't say to drop the A to a G. I've never seriously tried to play it though.. maybe its wrong... it gives the tuning (DADGBD) then this is what it says and I don't really understand it: "Both Mandolins are arranged for Guitars in the above tuning that are capoed at VII. All notes at VII are notated as open in the TAB." I don't get it... :bagoverhead:

The first 4 bars look like this:

--------0-----------------0--------|

----------------3------------------|

------------------------------------|

-----------0-------------------0---|

------------------------------------|

---0------------------0------------|

--------0-------2----------0------|

----------------3------------------|

------------------------------------|

-----------0-------------------0---|

------------------------------------|

---0------------------0------------|

--------0-----------------0--------|

----------------3------------------|

------------------------------------|

-----------0-------------------0---|

------------------------------------|

---0------------------0------------|

--------0--------0/2---------0-----|

------------------------------------|

------------------------------------|

-----------0-------------------0---|

------------------------------------|

---0------------------0------------|

Wonder if its right...

Edited by songbird

Share this post


Link to post
Share on other sites
Oh... my book doesn't say to drop the A to a G. I've never seriously tried to play it though.. maybe its wrong... it gives the tuning (DADGBD) then this is what it says and I don't really understand it: "Both Mandolins are arranged for Guitars in the above tuning that are capoed at VII. All notes at VII are notated as open in the TAB." I don't get it... :bagoverhead:

The first 4 bars look like this:

--------0-----------------0--------|

----------------3------------------|

------------------------------------|

-----------0-------------------0---|

------------------------------------|

---0------------------0------------|

--------0-------2----------0------|

----------------3------------------|

------------------------------------|

-----------0-------------------0---|

------------------------------------|

---0------------------0------------|

--------0-----------------0--------|

----------------3------------------|

------------------------------------|

-----------0-------------------0---|

------------------------------------|

---0------------------0------------|

--------0--------0/2---------0-----|

------------------------------------|

------------------------------------|

-----------0-------------------0---|

------------------------------------|

---0------------------0------------|

Wonder if its right...

I found the tab. It is absolutely DADGBE. Starts by hitting the 4 and 6 (counting the high string as 1 and the low string-in this case D but in standard E as number 6). Hitting the 4 and 6 string open back and forth but not simultaniusly. and then playing at the same time on the higher strings in the 5th and 7th frets. Wish I could post it. Have it printed. Send me your adress and Id make a Xerox copy and send it. I printed it off Olga when they were up and running.

Share this post


Link to post
Share on other sites
In My Time of Dying is absolutely CGCGCE!!! Sorrry Leddy and all of you that think it is EAEAC#E. No way! I just played along with Jimmy and it is in C

You won't be convinced on this one will you? :)

OK - try this. Tune to open G (or open A - it doesn't matter which, the intervals are the same) then play this bit. Fingered, not slide, excuse the clumsy attempt at tab...

D --887--887--887--887--665--665--665--665

B --887--887--887--887--665--665--665--665

G --555--555--555--555--333--333--333--333

D --555--555--555--555--333--333--333--333

G xxxxxxxxxxxxxxxxxxxxxxxxxxxxxxxxxxx

D xxxxxxxxxxxxxxxxxxxxxxxxxxxxxxxxxxx

Sound familiar? How do you figure on playing that bit in open C?

Share this post


Link to post
Share on other sites
You won't be convinced on this one will you? :)

OK - try this. Tune to open G (or open A - it doesn't matter which, the intervals are the same) then play this bit. Fingered, not slide, excuse the clumsy attempt at tab...

D --887--887--887--887--665--665--665--665

B --887--887--887--887--665--665--665--665

G --555--555--555--555--333--333--333--333

D --555--555--555--555--333--333--333--333

G xxxxxxxxxxxxxxxxxxxxxxxxxxxxxxxxxxx

D xxxxxxxxxxxxxxxxxxxxxxxxxxxxxxxxxxx

Sound familiar? How do you figure on playing that bit in open C?

By playing it in frets 2, 3 and 5 and open and sliding up to fret 12 for the higher part. The b string is tuned up to C. Of course the lowest string isnt really used so i can see why there is come disagreement there.

Share this post


Link to post
Share on other sites
You won't be convinced on this one will you? :)

OK - try this. Tune to open G (or open A - it doesn't matter which, the intervals are the same) then play this bit. Fingered, not slide, excuse the clumsy attempt at tab...

D --887--887--887--887--665--665--665--665

B --887--887--887--887--665--665--665--665

G --555--555--555--555--333--333--333--333

D --555--555--555--555--333--333--333--333

G xxxxxxxxxxxxxxxxxxxxxxxxxxxxxxxxxxx

D xxxxxxxxxxxxxxxxxxxxxxxxxxxxxxxxxxx

Sound familiar? How do you figure on playing that bit in open C?

Tried it. Now try mine. CGCGCE. Start in fret 3 then 2 and up to 5. then 3 to 2 to 12. Using open at times. Dead ass in key with O2.

Share this post


Link to post
Share on other sites
By playing it in frets 2, 3 and 5 and open and sliding up to fret 12 for the higher part. The b string is tuned up to C. Of course the lowest string isnt really used so i can see why there is come disagreement there.

OK - you're confusing me a bit now. The bit I tabbed (or tried to B) ) doesn't use a slide - it's the fast part in the middle of the song. On the album it first comes in at 3 mins 46. The first time it just does the half the pattern, then when it comes back around 4 mins 40-ish it does the whole pattern.

Share this post


Link to post
Share on other sites
OK - you're confusing me a bit now. The bit I tabbed (or tried to B) ) doesn't use a slide - it's the fast part in the middle of the song. On the album it first comes in at 3 mins 46. The first time it just does the half the pattern, then when it comes back around 4 mins 40-ish it does the whole pattern.

Im talking about the beginning/main riff so to speak on slide. Ill have to try your tab with fingers later when I can plut in. tried with the electric here on my lap but need to plug in. Cant tell. I know that if you slide using the middle strings more or less that my tuning matches Jimmy in key. Never doutbed it until a someone put up that othere tuning. The guy that showed me how to play it in the 70s specifially said to tune the b string up to c.

Share this post


Link to post
Share on other sites

Well you've got a G string in the middle of your tuning, which is the same as in open G, so for the parts where he's mainly using that string plus "ghost" notes on the others, it'll be close.

But for the rest of it, I still don't agree... :)

Let me know when you've tried that middle part.

Anyway - I've got to go out now, but I'll check back in on this later.

Share this post


Link to post
Share on other sites

is there any way i can scan in and post pics? coz i can give you the whole song. It's in DBGDAD, 1st to 6th.

but yeah 23 pages long lol, with mandolins and lyrics included

and same as songbird ive never tried to play it, quite confusing the way its set out. I know its the same because mine says the exact same about the mandolins capoed at VII.

Edited by ledzep4life

Share this post


Link to post
Share on other sites
is there any way i can scan in and post pics? coz i can give you the whole song. It's in DBGDAD, 1st to 6th.

but yeah 23 pages long lol, with mandolins and lyrics included

and same as songbird ive never tried to play it, quite confusing the way its set out. I know its the same because mine says the exact same about the mandolins capoed at VII.

Which song are you talking about? And dont you mean DADGBD??

Share this post


Link to post
Share on other sites

Join the conversation

You can post now and register later. If you have an account, sign in now to post with your account.

Guest
Reply to this topic...

×   Pasted as rich text.   Paste as plain text instead

  Only 75 emoji are allowed.

×   Your link has been automatically embedded.   Display as a link instead

×   Your previous content has been restored.   Clear editor

×   You cannot paste images directly. Upload or insert images from URL.

Sign in to follow this  

×
×
  • Create New...